ISO-10303-21;
HEADER;
FILE_DESCRIPTION( ( 'Unknown' ), '1' );
FILE_NAME( '//Server/ofimatica/alfredo/Alfredo2/ISOTUBI/PZAS3D/FICHATECNICA/NUMEPRESS/generico 3D/F14DN15-22.stp', 'Unknown', ( 'Unknown' ), ( 'Unknown' ), 'PSStep 14.0', 'Unknown', '  ' );
FILE_SCHEMA( ( 'AUTOMOTIVE_DESIGN { 1 0 10303 214 1 1 1 1 }' ) );
ENDSEC;
DATA;
#1 = MECHANICAL_DESIGN_GEOMETRIC_PRESENTATION_REPRESENTATION( ' ', ( #10, #11, #12, #13, #14, #15, #16, #17, #18, #19, #20, #21, #22, #23, #24 ), #6 );
#2 = PRODUCT_DEFINITION_CONTEXT( '', #25, 'design' );
#3 = APPLICATION_PROTOCOL_DEFINITION( 'international standard', 'automotive_design', 2001, #25 );
#4 = PRODUCT_CATEGORY_RELATIONSHIP( 'NONE', 'NONE', #26, #27 );
#5 = SHAPE_DEFINITION_REPRESENTATION( #28, #29 );
#6 =  ( GEOMETRIC_REPRESENTATION_CONTEXT( 3 )GLOBAL_UNCERTAINTY_ASSIGNED_CONTEXT( ( #32 ) )GLOBAL_UNIT_ASSIGNED_CONTEXT( ( #34, #35, #36 ) )REPRESENTATION_CONTEXT( 'NONE', 'WORKSPACE' ) );
#10 = STYLED_ITEM( '', ( #38 ), #39 );
#11 = STYLED_ITEM( '', ( #40 ), #41 );
#12 = STYLED_ITEM( '', ( #42 ), #43 );
#13 = STYLED_ITEM( '', ( #44 ), #45 );
#14 = STYLED_ITEM( '', ( #46 ), #47 );
#15 = STYLED_ITEM( '', ( #48 ), #49 );
#16 = STYLED_ITEM( '', ( #50 ), #51 );
#17 = STYLED_ITEM( '', ( #52 ), #53 );
#18 = STYLED_ITEM( '', ( #54 ), #55 );
#19 = STYLED_ITEM( '', ( #56 ), #57 );
#20 = STYLED_ITEM( '', ( #58 ), #59 );
#21 = STYLED_ITEM( '', ( #60 ), #61 );
#22 = STYLED_ITEM( '', ( #62 ), #63 );
#23 = STYLED_ITEM( '', ( #64 ), #65 );
#24 = STYLED_ITEM( '', ( #66 ), #67 );
#25 = APPLICATION_CONTEXT( 'core data for automotive mechanical design processes' );
#26 = PRODUCT_CATEGORY( 'part', 'NONE' );
#27 = PRODUCT_RELATED_PRODUCT_CATEGORY( 'detail', ' ', ( #68 ) );
#28 = PRODUCT_DEFINITION_SHAPE( 'NONE', 'NONE', #69 );
#29 = ADVANCED_BREP_SHAPE_REPRESENTATION( '1', ( #70, #71 ), #6 );
#32 = UNCERTAINTY_MEASURE_WITH_UNIT( LENGTH_MEASURE( 0.00100000000000000 ), #34, '', '' );
#34 =  ( CONVERSION_BASED_UNIT( 'MILLIMETRE', #74 )LENGTH_UNIT(  )NAMED_UNIT( #77 ) );
#35 =  ( NAMED_UNIT( #79 )PLANE_ANGLE_UNIT(  )SI_UNIT( $, .RADIAN. ) );
#36 =  ( NAMED_UNIT( #79 )SI_UNIT( $, .STERADIAN. )SOLID_ANGLE_UNIT(  ) );
#38 = PRESENTATION_STYLE_ASSIGNMENT( ( #85 ) );
#39 = ADVANCED_FACE( '', ( #86, #87 ), #88, .F. );
#40 = PRESENTATION_STYLE_ASSIGNMENT( ( #89 ) );
#41 = ADVANCED_FACE( '', ( #90, #91 ), #92, .T. );
#42 = PRESENTATION_STYLE_ASSIGNMENT( ( #93 ) );
#43 = ADVANCED_FACE( '', ( #94 ), #95, .F. );
#44 = PRESENTATION_STYLE_ASSIGNMENT( ( #96 ) );
#45 = ADVANCED_FACE( '', ( #97, #98 ), #99, .T. );
#46 = PRESENTATION_STYLE_ASSIGNMENT( ( #100 ) );
#47 = ADVANCED_FACE( '', ( #101, #102 ), #103, .T. );
#48 = PRESENTATION_STYLE_ASSIGNMENT( ( #104 ) );
#49 = ADVANCED_FACE( '', ( #105, #106 ), #107, .F. );
#50 = PRESENTATION_STYLE_ASSIGNMENT( ( #108 ) );
#51 = ADVANCED_FACE( '', ( #109 ), #110, .T. );
#52 = PRESENTATION_STYLE_ASSIGNMENT( ( #111 ) );
#53 = ADVANCED_FACE( '', ( #112, #113 ), #114, .F. );
#54 = PRESENTATION_STYLE_ASSIGNMENT( ( #115 ) );
#55 = ADVANCED_FACE( '', ( #116, #117 ), #118, .F. );
#56 = PRESENTATION_STYLE_ASSIGNMENT( ( #119 ) );
#57 = ADVANCED_FACE( '', ( #120, #121 ), #122, .F. );
#58 = PRESENTATION_STYLE_ASSIGNMENT( ( #123 ) );
#59 = ADVANCED_FACE( '', ( #124, #125 ), #126, .T. );
#60 = PRESENTATION_STYLE_ASSIGNMENT( ( #127 ) );
#61 = ADVANCED_FACE( '', ( #128, #129 ), #130, .F. );
#62 = PRESENTATION_STYLE_ASSIGNMENT( ( #131 ) );
#63 = ADVANCED_FACE( '', ( #132, #133 ), #134, .T. );
#64 = PRESENTATION_STYLE_ASSIGNMENT( ( #135 ) );
#65 = ADVANCED_FACE( '', ( #136, #137 ), #138, .T. );
#66 = PRESENTATION_STYLE_ASSIGNMENT( ( #139 ) );
#67 = ADVANCED_FACE( '', ( #140, #141 ), #142, .T. );
#68 = PRODUCT( '1', '1', 'PART-1-DESC', ( #143 ) );
#69 = PRODUCT_DEFINITION( 'NONE', 'NONE', #144, #2 );
#70 = MANIFOLD_SOLID_BREP( '1', #145 );
#71 = AXIS2_PLACEMENT_3D( '', #146, #147, #148 );
#74 = LENGTH_MEASURE_WITH_UNIT( LENGTH_MEASURE( 1.00000000000000 ), #149 );
#77 = DIMENSIONAL_EXPONENTS( 1.00000000000000, 0.000000000000000, 0.000000000000000, 0.000000000000000, 0.000000000000000, 0.000000000000000, 0.000000000000000 );
#79 = DIMENSIONAL_EXPONENTS( 0.000000000000000, 0.000000000000000, 0.000000000000000, 0.000000000000000, 0.000000000000000, 0.000000000000000, 0.000000000000000 );
#85 = SURFACE_STYLE_USAGE( .BOTH., #150 );
#86 = FACE_OUTER_BOUND( '', #151, .T. );
#87 = FACE_BOUND( '', #152, .T. );
#88 = PLANE( '', #153 );
#89 = SURFACE_STYLE_USAGE( .BOTH., #154 );
#90 = FACE_OUTER_BOUND( '', #155, .T. );
#91 = FACE_OUTER_BOUND( '', #156, .T. );
#92 = CYLINDRICAL_SURFACE( '', #157, 10.0000000000000 );
#93 = SURFACE_STYLE_USAGE( .BOTH., #158 );
#94 = FACE_OUTER_BOUND( '', #159, .T. );
#95 = PLANE( '', #160 );
#96 = SURFACE_STYLE_USAGE( .BOTH., #161 );
#97 = FACE_OUTER_BOUND( '', #162, .T. );
#98 = FACE_BOUND( '', #163, .T. );
#99 = CONICAL_SURFACE( '', #164, 9.50000000000000, 0.785398163397448 );
#100 = SURFACE_STYLE_USAGE( .BOTH., #165 );
#101 = FACE_OUTER_BOUND( '', #166, .T. );
#102 = FACE_OUTER_BOUND( '', #167, .T. );
#103 = CYLINDRICAL_SURFACE( '', #168, 11.0000000000000 );
#104 = SURFACE_STYLE_USAGE( .BOTH., #169 );
#105 = FACE_OUTER_BOUND( '', #170, .T. );
#106 = FACE_OUTER_BOUND( '', #171, .T. );
#107 = TOROIDAL_SURFACE( '', #172, 7.00000000000000, 2.55000000000000 );
#108 = SURFACE_STYLE_USAGE( .BOTH., #173 );
#109 = FACE_OUTER_BOUND( '', #174, .T. );
#110 = PLANE( '', #175 );
#111 = SURFACE_STYLE_USAGE( .BOTH., #176 );
#112 = FACE_OUTER_BOUND( '', #177, .T. );
#113 = FACE_OUTER_BOUND( '', #178, .T. );
#114 = CYLINDRICAL_SURFACE( '', #179, 7.50000000000000 );
#115 = SURFACE_STYLE_USAGE( .BOTH., #180 );
#116 = FACE_OUTER_BOUND( '', #181, .T. );
#117 = FACE_BOUND( '', #182, .T. );
#118 = PLANE( '', #183 );
#119 = SURFACE_STYLE_USAGE( .BOTH., #184 );
#120 = FACE_OUTER_BOUND( '', #185, .T. );
#121 = FACE_OUTER_BOUND( '', #186, .T. );
#122 = CYLINDRICAL_SURFACE( '', #187, 7.25000000000000 );
#123 = SURFACE_STYLE_USAGE( .BOTH., #188 );
#124 = FACE_OUTER_BOUND( '', #189, .T. );
#125 = FACE_OUTER_BOUND( '', #190, .T. );
#126 = ( BOUNDED_SURFACE(  )B_SPLINE_SURFACE( 3, 3, ( ( #193, #194, #195, #196, #197, #198, #199 ), ( #200, #201, #202, #203, #204, #205, #206 ), ( #207, #208, #209, #210, #211, #212, #213 ), ( #214, #215, #216, #217, #218, #219, #220 ) ), .UNSPECIFIED., .F., .T., .F. )B_SPLINE_SURFACE_WITH_KNOTS( ( 4, 4 ), ( 4, 3, 4 ), ( 0.000000000000000, 6.28318530717959 ), ( 0.000000000000000, 0.447832396928932, 0.895664793857865 ), .UNSPECIFIED. )GEOMETRIC_REPRESENTATION_ITEM(  )RATIONAL_B_SPLINE_SURFACE( ( ( 1.00000000000000, 0.333333333333333, 0.333333333333333, 1.00000000000000, 0.333333333333333, 0.333333333333333, 1.00000000000000 ), ( 0.934258545910665, 0.311419515303555, 0.311419515303555, 0.934258545910665, 0.311419515303555, 0.311419515303555, 0.934258545910665 ), ( 0.934258545910665, 0.311419515303555, 0.311419515303555, 0.934258545910665, 0.311419515303555, 0.311419515303555, 0.934258545910665 ), ( 1.00000000000000, 0.333333333333333, 0.333333333333333, 1.00000000000000, 0.333333333333333, 0.333333333333333, 1.00000000000000 ) ) )REPRESENTATION_ITEM( '' )SURFACE(  ) );
#127 = SURFACE_STYLE_USAGE( .BOTH., #226 );
#128 = FACE_OUTER_BOUND( '', #227, .T. );
#129 = FACE_OUTER_BOUND( '', #228, .T. );
#130 = CYLINDRICAL_SURFACE( '', #229, 9.50000000000000 );
#131 = SURFACE_STYLE_USAGE( .BOTH., #230 );
#132 = FACE_OUTER_BOUND( '', #231, .T. );
#133 = FACE_BOUND( '', #232, .T. );
#134 = PLANE( '', #233 );
#135 = SURFACE_STYLE_USAGE( .BOTH., #234 );
#136 = FACE_OUTER_BOUND( '', #235, .T. );
#137 = FACE_OUTER_BOUND( '', #236, .T. );
#138 = TOROIDAL_SURFACE( '', #237, 8.75000000000000, 1.50000000000000 );
#139 = SURFACE_STYLE_USAGE( .BOTH., #238 );
#140 = FACE_OUTER_BOUND( '', #239, .T. );
#141 = FACE_OUTER_BOUND( '', #240, .T. );
#142 = CYLINDRICAL_SURFACE( '', #241, 8.75000000000000 );
#143 = PRODUCT_CONTEXT( '', #25, 'mechanical' );
#144 = PRODUCT_DEFINITION_FORMATION_WITH_SPECIFIED_SOURCE( ' ', 'NONE', #68, .NOT_KNOWN. );
#145 = CLOSED_SHELL( '', ( #55, #39, #47, #59, #49, #67, #61, #57, #63, #51, #41, #53, #65, #43, #45 ) );
#146 = CARTESIAN_POINT( '', ( 0.000000000000000, 0.000000000000000, 0.000000000000000 ) );
#147 = DIRECTION( '', ( 0.000000000000000, 0.000000000000000, 1.00000000000000 ) );
#148 = DIRECTION( '', ( 1.00000000000000, 0.000000000000000, 0.000000000000000 ) );
#149 =  ( LENGTH_UNIT(  )NAMED_UNIT( #77 )SI_UNIT( .MILLI., .METRE. ) );
#150 = SURFACE_SIDE_STYLE( '', ( #243 ) );
#151 = EDGE_LOOP( '', ( #244 ) );
#152 = EDGE_LOOP( '', ( #245 ) );
#153 = AXIS2_PLACEMENT_3D( '', #246, #247, #248 );
#154 = SURFACE_SIDE_STYLE( '', ( #249 ) );
#155 = EDGE_LOOP( '', ( #250 ) );
#156 = EDGE_LOOP( '', ( #251 ) );
#157 = AXIS2_PLACEMENT_3D( '', #252, #253, #254 );
#158 = SURFACE_SIDE_STYLE( '', ( #255 ) );
#159 = EDGE_LOOP( '', ( #256 ) );
#160 = AXIS2_PLACEMENT_3D( '', #257, #258, #259 );
#161 = SURFACE_SIDE_STYLE( '', ( #260 ) );
#162 = EDGE_LOOP( '', ( #261 ) );
#163 = EDGE_LOOP( '', ( #262 ) );
#164 = AXIS2_PLACEMENT_3D( '', #263, #264, #265 );
#165 = SURFACE_SIDE_STYLE( '', ( #266 ) );
#166 = EDGE_LOOP( '', ( #267 ) );
#167 = EDGE_LOOP( '', ( #268 ) );
#168 = AXIS2_PLACEMENT_3D( '', #269, #270, #271 );
#169 = SURFACE_SIDE_STYLE( '', ( #272 ) );
#170 = EDGE_LOOP( '', ( #273 ) );
#171 = EDGE_LOOP( '', ( #274 ) );
#172 = AXIS2_PLACEMENT_3D( '', #275, #276, #277 );
#173 = SURFACE_SIDE_STYLE( '', ( #278 ) );
#174 = EDGE_LOOP( '', ( #279 ) );
#175 = AXIS2_PLACEMENT_3D( '', #280, #281, #282 );
#176 = SURFACE_SIDE_STYLE( '', ( #283 ) );
#177 = EDGE_LOOP( '', ( #284 ) );
#178 = EDGE_LOOP( '', ( #285 ) );
#179 = AXIS2_PLACEMENT_3D( '', #286, #287, #288 );
#180 = SURFACE_SIDE_STYLE( '', ( #289 ) );
#181 = EDGE_LOOP( '', ( #290 ) );
#182 = EDGE_LOOP( '', ( #291 ) );
#183 = AXIS2_PLACEMENT_3D( '', #292, #293, #294 );
#184 = SURFACE_SIDE_STYLE( '', ( #295 ) );
#185 = EDGE_LOOP( '', ( #296 ) );
#186 = EDGE_LOOP( '', ( #297 ) );
#187 = AXIS2_PLACEMENT_3D( '', #298, #299, #300 );
#188 = SURFACE_SIDE_STYLE( '', ( #301 ) );
#189 = EDGE_LOOP( '', ( #302 ) );
#190 = EDGE_LOOP( '', ( #303 ) );
#193 = CARTESIAN_POINT( '', ( 8.75000000000000, 0.000000000000000, 4.41054745239111 ) );
#194 = CARTESIAN_POINT( '', ( 8.75000000000000, 17.5000000000000, 4.41054745239111 ) );
#195 = CARTESIAN_POINT( '', ( -8.75000000000000, 17.5000000000000, 4.41054745239111 ) );
#196 = CARTESIAN_POINT( '', ( -8.75000000000000, 0.000000000000000, 4.41054745239111 ) );
#197 = CARTESIAN_POINT( '', ( -8.75000000000000, -17.5000000000000, 4.41054745239111 ) );
#198 = CARTESIAN_POINT( '', ( 8.75000000000000, -17.5000000000000, 4.41054745239111 ) );
#199 = CARTESIAN_POINT( '', ( 8.75000000000000, 0.000000000000000, 4.41054745239111 ) );
#200 = CARTESIAN_POINT( '', ( 10.1972243622680, 0.000000000000000, 3.25184062603251 ) );
#201 = CARTESIAN_POINT( '', ( 10.1972243622680, 20.3944487245360, 3.25184062603251 ) );
#202 = CARTESIAN_POINT( '', ( -10.1972243622680, 20.3944487245360, 3.25184062603251 ) );
#203 = CARTESIAN_POINT( '', ( -10.1972243622680, 0.000000000000000, 3.25184062603251 ) );
#204 = CARTESIAN_POINT( '', ( -10.1972243622680, -20.3944487245360, 3.25184062603251 ) );
#205 = CARTESIAN_POINT( '', ( 10.1972243622680, -20.3944487245360, 3.25184062603251 ) );
#206 = CARTESIAN_POINT( '', ( 10.1972243622680, 0.000000000000000, 3.25184062603251 ) );
#207 = CARTESIAN_POINT( '', ( 11.0000000000000, 0.000000000000000, 1.58072987576608 ) );
#208 = CARTESIAN_POINT( '', ( 11.0000000000000, 22.0000000000000, 1.58072987576608 ) );
#209 = CARTESIAN_POINT( '', ( -11.0000000000000, 22.0000000000000, 1.58072987576608 ) );
#210 = CARTESIAN_POINT( '', ( -11.0000000000000, 0.000000000000000, 1.58072987576608 ) );
#211 = CARTESIAN_POINT( '', ( -11.0000000000000, -22.0000000000000, 1.58072987576608 ) );
#212 = CARTESIAN_POINT( '', ( 11.0000000000000, -22.0000000000000, 1.58072987576608 ) );
#213 = CARTESIAN_POINT( '', ( 11.0000000000000, 0.000000000000000, 1.58072987576608 ) );
#214 = CARTESIAN_POINT( '', ( 11.0000000000000, 0.000000000000000, -0.273201046407687 ) );
#215 = CARTESIAN_POINT( '', ( 11.0000000000000, 22.0000000000000, -0.273201046407687 ) );
#216 = CARTESIAN_POINT( '', ( -11.0000000000000, 22.0000000000000, -0.273201046407687 ) );
#217 = CARTESIAN_POINT( '', ( -11.0000000000000, 0.000000000000000, -0.273201046407687 ) );
#218 = CARTESIAN_POINT( '', ( -11.0000000000000, -22.0000000000000, -0.273201046407687 ) );
#219 = CARTESIAN_POINT( '', ( 11.0000000000000, -22.0000000000000, -0.273201046407687 ) );
#220 = CARTESIAN_POINT( '', ( 11.0000000000000, 0.000000000000000, -0.273201046407687 ) );
#226 = SURFACE_SIDE_STYLE( '', ( #304 ) );
#227 = EDGE_LOOP( '', ( #305 ) );
#228 = EDGE_LOOP( '', ( #306 ) );
#229 = AXIS2_PLACEMENT_3D( '', #307, #308, #309 );
#230 = SURFACE_SIDE_STYLE( '', ( #310 ) );
#231 = EDGE_LOOP( '', ( #311 ) );
#232 = EDGE_LOOP( '', ( #312 ) );
#233 = AXIS2_PLACEMENT_3D( '', #313, #314, #315 );
#234 = SURFACE_SIDE_STYLE( '', ( #316 ) );
#235 = EDGE_LOOP( '', ( #317 ) );
#236 = EDGE_LOOP( '', ( #318 ) );
#237 = AXIS2_PLACEMENT_3D( '', #319, #320, #321 );
#238 = SURFACE_SIDE_STYLE( '', ( #322 ) );
#239 = EDGE_LOOP( '', ( #323 ) );
#240 = EDGE_LOOP( '', ( #324 ) );
#241 = AXIS2_PLACEMENT_3D( '', #325, #326, #327 );
#243 = SURFACE_STYLE_FILL_AREA( #328 );
#244 = ORIENTED_EDGE( '', *, *, #329, .T. );
#245 = ORIENTED_EDGE( '', *, *, #330, .T. );
#246 = CARTESIAN_POINT( '', ( 0.000000000000000, 0.000000000000000, -30.3491513421759 ) );
#247 = DIRECTION( '', ( 0.000000000000000, 0.000000000000000, 1.00000000000000 ) );
#248 = DIRECTION( '', ( 1.00000000000000, 0.000000000000000, 0.000000000000000 ) );
#249 = SURFACE_STYLE_FILL_AREA( #331 );
#250 = ORIENTED_EDGE( '', *, *, #332, .T. );
#251 = ORIENTED_EDGE( '', *, *, #333, .T. );
#252 = CARTESIAN_POINT( '', ( 0.000000000000000, 0.000000000000000, 32.6508486578241 ) );
#253 = DIRECTION( '', ( -0.000000000000000, -0.000000000000000, 1.00000000000000 ) );
#254 = DIRECTION( '', ( -1.00000000000000, 0.000000000000000, 0.000000000000000 ) );
#255 = SURFACE_STYLE_FILL_AREA( #334 );
#256 = ORIENTED_EDGE( '', *, *, #335, .F. );
#257 = CARTESIAN_POINT( '', ( 0.000000000000000, 0.000000000000000, 12.6508486578241 ) );
#258 = DIRECTION( '', ( 0.000000000000000, 0.000000000000000, -1.00000000000000 ) );
#259 = DIRECTION( '', ( -1.00000000000000, 0.000000000000000, 0.000000000000000 ) );
#260 = SURFACE_STYLE_FILL_AREA( #336 );
#261 = ORIENTED_EDGE( '', *, *, #332, .F. );
#262 = ORIENTED_EDGE( '', *, *, #337, .F. );
#263 = CARTESIAN_POINT( '', ( 0.000000000000000, 0.000000000000000, 10.8108486578241 ) );
#264 = DIRECTION( '', ( -0.000000000000000, -0.000000000000000, 1.00000000000000 ) );
#265 = DIRECTION( '', ( 1.00000000000000, 0.000000000000000, 0.000000000000000 ) );
#266 = SURFACE_STYLE_FILL_AREA( #338 );
#267 = ORIENTED_EDGE( '', *, *, #329, .F. );
#268 = ORIENTED_EDGE( '', *, *, #339, .T. );
#269 = CARTESIAN_POINT( '', ( 0.000000000000000, 0.000000000000000, -28.8812599557002 ) );
#270 = DIRECTION( '', ( -0.000000000000000, -0.000000000000000, -1.00000000000000 ) );
#271 = DIRECTION( '', ( 1.00000000000000, 0.000000000000000, 0.000000000000000 ) );
#272 = SURFACE_STYLE_FILL_AREA( #340 );
#273 = ORIENTED_EDGE( '', *, *, #341, .T. );
#274 = ORIENTED_EDGE( '', *, *, #342, .F. );
#275 = CARTESIAN_POINT( '', ( 0.000000000000000, 0.000000000000000, 0.00580276617389176 ) );
#276 = DIRECTION( '', ( 0.000000000000000, 0.000000000000000, -1.00000000000000 ) );
#277 = DIRECTION( '', ( -1.00000000000000, 0.000000000000000, 0.000000000000000 ) );
#278 = SURFACE_STYLE_FILL_AREA( #343 );
#279 = ORIENTED_EDGE( '', *, *, #344, .T. );
#280 = CARTESIAN_POINT( '', ( 0.000000000000000, 0.000000000000000, 10.8108486578241 ) );
#281 = DIRECTION( '', ( 0.000000000000000, 0.000000000000000, -1.00000000000000 ) );
#282 = DIRECTION( '', ( -1.00000000000000, 0.000000000000000, 0.000000000000000 ) );
#283 = SURFACE_STYLE_FILL_AREA( #345 );
#284 = ORIENTED_EDGE( '', *, *, #335, .T. );
#285 = ORIENTED_EDGE( '', *, *, #346, .F. );
#286 = CARTESIAN_POINT( '', ( 0.000000000000000, 0.000000000000000, 12.6508486578241 ) );
#287 = DIRECTION( '', ( -0.000000000000000, -0.000000000000000, -1.00000000000000 ) );
#288 = DIRECTION( '', ( 1.00000000000000, 0.000000000000000, 0.000000000000000 ) );
#289 = SURFACE_STYLE_FILL_AREA( #347 );
#290 = ORIENTED_EDGE( '', *, *, #333, .F. );
#291 = ORIENTED_EDGE( '', *, *, #346, .T. );
#292 = CARTESIAN_POINT( '', ( 0.000000000000000, 0.000000000000000, 32.6508486578241 ) );
#293 = DIRECTION( '', ( 0.000000000000000, 0.000000000000000, -1.00000000000000 ) );
#294 = DIRECTION( '', ( -1.00000000000000, 0.000000000000000, 0.000000000000000 ) );
#295 = SURFACE_STYLE_FILL_AREA( #348 );
#296 = ORIENTED_EDGE( '', *, *, #349, .T. );
#297 = ORIENTED_EDGE( '', *, *, #344, .F. );
#298 = CARTESIAN_POINT( '', ( 0.000000000000000, 0.000000000000000, 22.0114653745082 ) );
#299 = DIRECTION( '', ( -0.000000000000000, -0.000000000000000, 1.00000000000000 ) );
#300 = DIRECTION( '', ( -1.00000000000000, 0.000000000000000, 0.000000000000000 ) );
#301 = SURFACE_STYLE_FILL_AREA( #350 );
#302 = ORIENTED_EDGE( '', *, *, #339, .F. );
#303 = ORIENTED_EDGE( '', *, *, #351, .T. );
#304 = SURFACE_STYLE_FILL_AREA( #352 );
#305 = ORIENTED_EDGE( '', *, *, #342, .T. );
#306 = ORIENTED_EDGE( '', *, *, #330, .F. );
#307 = CARTESIAN_POINT( '', ( 0.000000000000000, 0.000000000000000, -28.8812599557002 ) );
#308 = DIRECTION( '', ( -0.000000000000000, -0.000000000000000, -1.00000000000000 ) );
#309 = DIRECTION( '', ( 1.00000000000000, 0.000000000000000, 0.000000000000000 ) );
#310 = SURFACE_STYLE_FILL_AREA( #353 );
#311 = ORIENTED_EDGE( '', *, *, #337, .T. );
#312 = ORIENTED_EDGE( '', *, *, #354, .F. );
#313 = CARTESIAN_POINT( '', ( 0.000000000000000, 0.000000000000000, 10.8108486578241 ) );
#314 = DIRECTION( '', ( 0.000000000000000, 0.000000000000000, -1.00000000000000 ) );
#315 = DIRECTION( '', ( -1.00000000000000, 0.000000000000000, 0.000000000000000 ) );
#316 = SURFACE_STYLE_FILL_AREA( #355 );
#317 = ORIENTED_EDGE( '', *, *, #349, .F. );
#318 = ORIENTED_EDGE( '', *, *, #341, .F. );
#319 = CARTESIAN_POINT( '', ( 0.000000000000000, 0.000000000000000, 3.65819923972383 ) );
#320 = DIRECTION( '', ( 0.000000000000000, 0.000000000000000, 1.00000000000000 ) );
#321 = DIRECTION( '', ( 1.00000000000000, 0.000000000000000, 0.000000000000000 ) );
#322 = SURFACE_STYLE_FILL_AREA( #356 );
#323 = ORIENTED_EDGE( '', *, *, #351, .F. );
#324 = ORIENTED_EDGE( '', *, *, #354, .T. );
#325 = CARTESIAN_POINT( '', ( 0.000000000000000, 0.000000000000000, 0.118740044299815 ) );
#326 = DIRECTION( '', ( -0.000000000000000, -0.000000000000000, -1.00000000000000 ) );
#327 = DIRECTION( '', ( 1.00000000000000, 0.000000000000000, 0.000000000000000 ) );
#328 = FILL_AREA_STYLE( '', ( #357 ) );
#329 = EDGE_CURVE( '', #358, #358, #359, .F. );
#330 = EDGE_CURVE( '', #360, #360, #361, .T. );
#331 = FILL_AREA_STYLE( '', ( #362 ) );
#332 = EDGE_CURVE( '', #363, #363, #364, .F. );
#333 = EDGE_CURVE( '', #365, #365, #366, .T. );
#334 = FILL_AREA_STYLE( '', ( #367 ) );
#335 = EDGE_CURVE( '', #368, #368, #369, .T. );
#336 = FILL_AREA_STYLE( '', ( #370 ) );
#337 = EDGE_CURVE( '', #371, #371, #372, .T. );
#338 = FILL_AREA_STYLE( '', ( #373 ) );
#339 = EDGE_CURVE( '', #374, #374, #375, .F. );
#340 = FILL_AREA_STYLE( '', ( #376 ) );
#341 = EDGE_CURVE( '', #377, #377, #378, .F. );
#342 = EDGE_CURVE( '', #379, #379, #380, .T. );
#343 = FILL_AREA_STYLE( '', ( #381 ) );
#344 = EDGE_CURVE( '', #382, #382, #383, .T. );
#345 = FILL_AREA_STYLE( '', ( #384 ) );
#346 = EDGE_CURVE( '', #385, #385, #386, .T. );
#347 = FILL_AREA_STYLE( '', ( #387 ) );
#348 = FILL_AREA_STYLE( '', ( #388 ) );
#349 = EDGE_CURVE( '', #389, #389, #390, .F. );
#350 = FILL_AREA_STYLE( '', ( #391 ) );
#351 = EDGE_CURVE( '', #392, #392, #393, .T. );
#352 = FILL_AREA_STYLE( '', ( #394 ) );
#353 = FILL_AREA_STYLE( '', ( #395 ) );
#354 = EDGE_CURVE( '', #396, #396, #397, .T. );
#355 = FILL_AREA_STYLE( '', ( #398 ) );
#356 = FILL_AREA_STYLE( '', ( #399 ) );
#357 = FILL_AREA_STYLE_COLOUR( '', #400 );
#358 = VERTEX_POINT( '', #401 );
#359 = CIRCLE( '', #402, 11.0000000000000 );
#360 = VERTEX_POINT( '', #403 );
#361 = CIRCLE( '', #404, 9.50000000000000 );
#362 = FILL_AREA_STYLE_COLOUR( '', #405 );
#363 = VERTEX_POINT( '', #406 );
#364 = CIRCLE( '', #407, 10.0000000000000 );
#365 = VERTEX_POINT( '', #408 );
#366 = CIRCLE( '', #409, 10.0000000000000 );
#367 = FILL_AREA_STYLE_COLOUR( '', #410 );
#368 = VERTEX_POINT( '', #411 );
#369 = CIRCLE( '', #412, 7.50000000000000 );
#370 = FILL_AREA_STYLE_COLOUR( '', #413 );
#371 = VERTEX_POINT( '', #414 );
#372 = CIRCLE( '', #415, 9.50000000000000 );
#373 = FILL_AREA_STYLE_COLOUR( '', #416 );
#374 = VERTEX_POINT( '', #417 );
#375 = CIRCLE( '', #418, 11.0000000000000 );
#376 = FILL_AREA_STYLE_COLOUR( '', #419 );
#377 = VERTEX_POINT( '', #420 );
#378 = CIRCLE( '', #421, 8.10185185185184 );
#379 = VERTEX_POINT( '', #422 );
#380 = CIRCLE( '', #423, 9.50000000000000 );
#381 = FILL_AREA_STYLE_COLOUR( '', #424 );
#382 = VERTEX_POINT( '', #425 );
#383 = CIRCLE( '', #426, 7.25000000000000 );
#384 = FILL_AREA_STYLE_COLOUR( '', #427 );
#385 = VERTEX_POINT( '', #428 );
#386 = CIRCLE( '', #429, 7.50000000000000 );
#387 = FILL_AREA_STYLE_COLOUR( '', #430 );
#388 = FILL_AREA_STYLE_COLOUR( '', #431 );
#389 = VERTEX_POINT( '', #432 );
#390 = CIRCLE( '', #433, 7.25000000000000 );
#391 = FILL_AREA_STYLE_COLOUR( '', #434 );
#392 = VERTEX_POINT( '', #435 );
#393 = CIRCLE( '', #436, 8.75000000000000 );
#394 = FILL_AREA_STYLE_COLOUR( '', #437 );
#395 = FILL_AREA_STYLE_COLOUR( '', #438 );
#396 = VERTEX_POINT( '', #439 );
#397 = CIRCLE( '', #440, 8.75000000000000 );
#398 = FILL_AREA_STYLE_COLOUR( '', #441 );
#399 = FILL_AREA_STYLE_COLOUR( '', #442 );
#400 = COLOUR_RGB( '', 0.752941191196442, 0.752941191196442, 0.752941191196442 );
#401 = CARTESIAN_POINT( '', ( 11.0000000000000, 0.000000000000000, -30.3491513421759 ) );
#402 = AXIS2_PLACEMENT_3D( '', #443, #444, #445 );
#403 = CARTESIAN_POINT( '', ( 9.50000000000000, 0.000000000000000, -30.3491513421759 ) );
#404 = AXIS2_PLACEMENT_3D( '', #446, #447, #448 );
#405 = COLOUR_RGB( '', 0.752941191196442, 0.752941191196442, 0.752941191196442 );
#406 = CARTESIAN_POINT( '', ( -10.0000000000000, 0.000000000000000, 11.3108486578241 ) );
#407 = AXIS2_PLACEMENT_3D( '', #449, #450, #451 );
#408 = CARTESIAN_POINT( '', ( 10.0000000000000, 0.000000000000000, 32.6508486578241 ) );
#409 = AXIS2_PLACEMENT_3D( '', #452, #453, #454 );
#410 = COLOUR_RGB( '', 0.752941191196442, 0.752941191196442, 0.752941191196442 );
#411 = CARTESIAN_POINT( '', ( 7.50000000000000, 0.000000000000000, 12.6508486578241 ) );
#412 = AXIS2_PLACEMENT_3D( '', #455, #456, #457 );
#413 = COLOUR_RGB( '', 0.752941191196442, 0.752941191196442, 0.752941191196442 );
#414 = CARTESIAN_POINT( '', ( -9.50000000000000, 0.000000000000000, 10.8108486578241 ) );
#415 = AXIS2_PLACEMENT_3D( '', #458, #459, #460 );
#416 = COLOUR_RGB( '', 0.752941191196442, 0.752941191196442, 0.752941191196442 );
#417 = CARTESIAN_POINT( '', ( 11.0000000000000, 0.000000000000000, -0.273201046407687 ) );
#418 = AXIS2_PLACEMENT_3D( '', #461, #462, #463 );
#419 = COLOUR_RGB( '', 0.752941191196442, 0.752941191196442, 0.752941191196442 );
#420 = CARTESIAN_POINT( '', ( -8.10185185185184, 0.000000000000000, 2.30545980507568 ) );
#421 = AXIS2_PLACEMENT_3D( '', #464, #465, #466 );
#422 = CARTESIAN_POINT( '', ( 9.50000000000000, 0.000000000000000, -0.496691014882148 ) );
#423 = AXIS2_PLACEMENT_3D( '', #467, #468, #469 );
#424 = COLOUR_RGB( '', 0.752941191196442, 0.752941191196442, 0.752941191196442 );
#425 = CARTESIAN_POINT( '', ( -7.25000000000000, 0.000000000000000, 10.8108486578241 ) );
#426 = AXIS2_PLACEMENT_3D( '', #470, #471, #472 );
#427 = COLOUR_RGB( '', 0.752941191196442, 0.752941191196442, 0.752941191196442 );
#428 = CARTESIAN_POINT( '', ( 7.50000000000000, 0.000000000000000, 32.6508486578241 ) );
#429 = AXIS2_PLACEMENT_3D( '', #473, #474, #475 );
#430 = COLOUR_RGB( '', 0.752941191196442, 0.752941191196442, 0.752941191196442 );
#431 = COLOUR_RGB( '', 0.752941191196442, 0.752941191196442, 0.752941191196442 );
#432 = CARTESIAN_POINT( '', ( 7.25000000000000, 0.000000000000000, 3.65819923972383 ) );
#433 = AXIS2_PLACEMENT_3D( '', #476, #477, #478 );
#434 = COLOUR_RGB( '', 0.752941191196442, 0.752941191196442, 0.752941191196442 );
#435 = CARTESIAN_POINT( '', ( -8.75000000000000, 0.000000000000000, 4.41054745239111 ) );
#436 = AXIS2_PLACEMENT_3D( '', #479, #480, #481 );
#437 = COLOUR_RGB( '', 0.752941191196442, 0.752941191196442, 0.752941191196442 );
#438 = COLOUR_RGB( '', 0.752941191196442, 0.752941191196442, 0.752941191196442 );
#439 = CARTESIAN_POINT( '', ( -8.75000000000000, 0.000000000000000, 10.8108486578241 ) );
#440 = AXIS2_PLACEMENT_3D( '', #482, #483, #484 );
#441 = COLOUR_RGB( '', 0.752941191196442, 0.752941191196442, 0.752941191196442 );
#442 = COLOUR_RGB( '', 0.752941191196442, 0.752941191196442, 0.752941191196442 );
#443 = CARTESIAN_POINT( '', ( 0.000000000000000, 0.000000000000000, -30.3491513421759 ) );
#444 = DIRECTION( '', ( 0.000000000000000, 0.000000000000000, 1.00000000000000 ) );
#445 = DIRECTION( '', ( 1.00000000000000, 0.000000000000000, 0.000000000000000 ) );
#446 = CARTESIAN_POINT( '', ( 0.000000000000000, 0.000000000000000, -30.3491513421759 ) );
#447 = DIRECTION( '', ( 0.000000000000000, 0.000000000000000, 1.00000000000000 ) );
#448 = DIRECTION( '', ( 1.00000000000000, 0.000000000000000, 0.000000000000000 ) );
#449 = CARTESIAN_POINT( '', ( 0.000000000000000, 0.000000000000000, 11.3108486578241 ) );
#450 = DIRECTION( '', ( 0.000000000000000, 0.000000000000000, -1.00000000000000 ) );
#451 = DIRECTION( '', ( -1.00000000000000, 0.000000000000000, 0.000000000000000 ) );
#452 = CARTESIAN_POINT( '', ( 0.000000000000000, 0.000000000000000, 32.6508486578241 ) );
#453 = DIRECTION( '', ( 0.000000000000000, 0.000000000000000, -1.00000000000000 ) );
#454 = DIRECTION( '', ( 1.00000000000000, 0.000000000000000, 0.000000000000000 ) );
#455 = CARTESIAN_POINT( '', ( 0.000000000000000, 0.000000000000000, 12.6508486578241 ) );
#456 = DIRECTION( '', ( 0.000000000000000, 0.000000000000000, -1.00000000000000 ) );
#457 = DIRECTION( '', ( 1.00000000000000, 0.000000000000000, 0.000000000000000 ) );
#458 = CARTESIAN_POINT( '', ( 0.000000000000000, 0.000000000000000, 10.8108486578241 ) );
#459 = DIRECTION( '', ( 0.000000000000000, 0.000000000000000, -1.00000000000000 ) );
#460 = DIRECTION( '', ( -1.00000000000000, 0.000000000000000, 0.000000000000000 ) );
#461 = CARTESIAN_POINT( '', ( 0.000000000000000, 0.000000000000000, -0.273201046407687 ) );
#462 = DIRECTION( '', ( 0.000000000000000, 0.000000000000000, 1.00000000000000 ) );
#463 = DIRECTION( '', ( 1.00000000000000, 0.000000000000000, 0.000000000000000 ) );
#464 = CARTESIAN_POINT( '', ( 0.000000000000000, 0.000000000000000, 2.30545980507568 ) );
#465 = DIRECTION( '', ( 0.000000000000000, 0.000000000000000, -1.00000000000000 ) );
#466 = DIRECTION( '', ( -1.00000000000000, 0.000000000000000, 0.000000000000000 ) );
#467 = CARTESIAN_POINT( '', ( 0.000000000000000, 0.000000000000000, -0.496691014882148 ) );
#468 = DIRECTION( '', ( 0.000000000000000, 0.000000000000000, 1.00000000000000 ) );
#469 = DIRECTION( '', ( 1.00000000000000, 0.000000000000000, 0.000000000000000 ) );
#470 = CARTESIAN_POINT( '', ( 0.000000000000000, 0.000000000000000, 10.8108486578241 ) );
#471 = DIRECTION( '', ( 0.000000000000000, 0.000000000000000, -1.00000000000000 ) );
#472 = DIRECTION( '', ( -1.00000000000000, 0.000000000000000, 0.000000000000000 ) );
#473 = CARTESIAN_POINT( '', ( 0.000000000000000, 0.000000000000000, 32.6508486578241 ) );
#474 = DIRECTION( '', ( 0.000000000000000, 0.000000000000000, -1.00000000000000 ) );
#475 = DIRECTION( '', ( 1.00000000000000, 0.000000000000000, 0.000000000000000 ) );
#476 = CARTESIAN_POINT( '', ( 0.000000000000000, 0.000000000000000, 3.65819923972383 ) );
#477 = DIRECTION( '', ( 0.000000000000000, 0.000000000000000, 1.00000000000000 ) );
#478 = DIRECTION( '', ( 1.00000000000000, 0.000000000000000, 0.000000000000000 ) );
#479 = CARTESIAN_POINT( '', ( 0.000000000000000, 0.000000000000000, 4.41054745239111 ) );
#480 = DIRECTION( '', ( 0.000000000000000, 0.000000000000000, -1.00000000000000 ) );
#481 = DIRECTION( '', ( -1.00000000000000, 0.000000000000000, 0.000000000000000 ) );
#482 = CARTESIAN_POINT( '', ( 0.000000000000000, 0.000000000000000, 10.8108486578241 ) );
#483 = DIRECTION( '', ( 0.000000000000000, 0.000000000000000, -1.00000000000000 ) );
#484 = DIRECTION( '', ( -1.00000000000000, 0.000000000000000, 0.000000000000000 ) );
ENDSEC;
END-ISO-10303-21;
